mediengestalter.info
FAQ :: Mitgliederliste :: MGi Team

Willkommen auf dem Portal für Mediengestalter

Aktuelles Datum und Uhrzeit: Di 06.12.2016 11:21 Benutzername: Passwort: Auto-Login

Thema: guitarshredshow with mr. fastfinger vom 08.08.2005


Neues Thema eröffnen   Neue Antwort erstellen MGi Foren-Übersicht -> Surftipps -> guitarshredshow with mr. fastfinger
Seite: Zurück  1, 2, 3
Autor Nachricht
l'Audiophile

Dabei seit: 16.09.2004
Ort: Berlin
Alter: 35
Geschlecht: Männlich
Verfasst Di 09.08.2005 13:16
Titel

Antworten mit Zitat Zum Seitenanfang

zinni hat geschrieben:
outsch hat geschrieben:
Ich tu nu nich so gerne Slayer daddeln * Nee, nee, nee *
eher so mehr iron maiden etc. * Ja, ja, ja... *
aber eher * Ich will nix hören... * Grins


Maiden ist oft auch ein gutes Stück langsamer als Slayer!

Slayer - Angel of Death...da der Teil, den die Gitarre zuerst alleine spielt und dann das Solo...DER HAMMER!


Der Teil nach den 3 1/2 min? Wenn du den meinst, der ist Au weia! hoch 12.


//
outsch hat geschrieben:
Aber ich habe mit so fast-tapping stuff kein problem! *hehe*


Das ist kein Fast-Tapping mehr sondern Mach 2 - Ultra Fast Tapping. Spiel mal nach Metronom, dann sehen wir weiter.


Die Slayer-Tabs sehen auch erst nach Pipifax aus, aber spiel mal folgendes:

Zitat:

e:----------------------------------|----------------------------------|
B:----------------------------------|----------------------------------|
G:----------------------------------|----------------------------------|
D:----------------------------------|----------------------------------|
A:--2----------------------------8--|--8----------------------------4--|
E:--0--0-0--0-0-0-0--0-0-0-0--0--6--|--6--0-0--0-0-0-0--0-0-0-0--0--2--|


End Rhy Fig 5
e:----------------------------------|----------------------------|
B:----------------------------------|----------------------------|
G:----------------------------------|----------------------------|
D:----------------------------------|----------------------------|
A:--4----------------------------8--|--8----------------------5--|
E:--2--0-0--0-0-0-0--0-0-0-0--0--6--|--6--0-0--0-0-0-0--2--0--3--|


Rhy Fig 6 End Rhy Fig 6
e:----------------------------------|-----------------------------|
B:----------------------------------|-----------------------------|
G:----------------------------------|-----------------------------|
D:----------------------------------|--------------------------7--|
A:----------------------------------|--------------------------5--|
E:--4--4-4-4-4-4-4--5--4-4-4-4-4-4--|--6--4-4-4-4-4-4-4--7--4-----|


komplett in ca ner halben Sekunde *ha ha*


Zuletzt bearbeitet von l'Audiophile am Di 09.08.2005 13:24, insgesamt 1-mal bearbeitet
  View user's profile Private Nachricht senden Website dieses Benutzers besuchen
Jan Miguel

Dabei seit: 31.07.2003
Ort: Köln
Alter: 35
Geschlecht: Männlich
Verfasst Di 09.08.2005 14:32
Titel

Antworten mit Zitat Zum Seitenanfang

outsch hat geschrieben:
1 jahr? ungefähr! wieso denn? findet ihr das kompliziert? Hä?
Hey, ich habe die dinger noch nicht ausprobiert denn ich habe das problem @home kein Netz *hu hu huu*
und im büro keinb gittare! * Ööhm... ja? *
Aber ich habe mit so fast-tapping stuff kein problem! *hehe*


Hä? Hä? Hä?
Ich glaub für die Sachen braucht man locker 6-10 Jahre wenn man bei null anfängt und genau darufhin arbeitet.
  View user's profile Private Nachricht senden Website dieses Benutzers besuchen
Anzeige
Anzeige
outsch

Dabei seit: 05.08.2005
Ort: Köln
Alter: 28
Geschlecht: Männlich
Verfasst Di 09.08.2005 15:12
Titel

Antworten mit Zitat Zum Seitenanfang

du willst mir jetzt aber nich weiss machen das du dafür 6-8 jahre gebraucht hast Au weia!
ich versuche das mal bei nem freund aber ich spiele generell sehrsehrsehrsehr schnell! *hehe*
aber vielleicht nehm ich die fresse auch zu voll!
but
no fun without risk! Grins
  View user's profile Private Nachricht senden
Jan Miguel

Dabei seit: 31.07.2003
Ort: Köln
Alter: 35
Geschlecht: Männlich
Verfasst Di 09.08.2005 15:50
Titel

Antworten mit Zitat Zum Seitenanfang

wir meinen hier aber die superschnellen Läufe von Tasten A-L?
  View user's profile Private Nachricht senden Website dieses Benutzers besuchen
outsch

Dabei seit: 05.08.2005
Ort: Köln
Alter: 28
Geschlecht: Männlich
Verfasst Mi 10.08.2005 08:19
Titel

Antworten mit Zitat Zum Seitenanfang

* Ich bin ja schon still... *
ach so
fu## das is jetzt aber peinlich *ha ha* * Ööhm... ja? *
  View user's profile Private Nachricht senden
Jan Miguel

Dabei seit: 31.07.2003
Ort: Köln
Alter: 35
Geschlecht: Männlich
Verfasst Mi 10.08.2005 09:33
Titel

Antworten mit Zitat Zum Seitenanfang

was meinst du denn? ich hab noch nix nicht-extrem-kompliziertes auf der Seite gefunden. wenn, wo?
geil aneinader vorbeigeschrieben Grins
  View user's profile Private Nachricht senden Website dieses Benutzers besuchen
outsch

Dabei seit: 05.08.2005
Ort: Köln
Alter: 28
Geschlecht: Männlich
Verfasst Mi 10.08.2005 10:32
Titel

Antworten mit Zitat Zum Seitenanfang

tjahahah *ha ha*
so kann es gehen Grins
but: * huduwudu! *
i take it with humor Ooops
(ich spreche fliessend denglish) *hehe*
  View user's profile Private Nachricht senden
 
Ähnliche Themen How I make $16,768 per Month with AdSense - sehr amüsant
scanR - Scan, copy and fax with your camera phone
Neues Thema eröffnen   Neue Antwort erstellen Seite: Zurück  1, 2, 3
MGi Foren-Übersicht -> Surftipps


Du kannst keine Beiträge in dieses Forum schreiben.
Du kannst auf Beiträge in diesem Forum nicht antworten.
Du kannst an Umfragen in diesem Forum nicht mitmachen.